ISO-10303-21;
HEADER;
FILE_DESCRIPTION (( 'STEP AP203' ),
    '1' );
FILE_NAME ('MHWP-12.7-632.8.STEP',
    '2020-12-22T09:25:18',
    ( '' ),
    ( '' ),
    'SwSTEP 2.0',
    'SolidWorks 2020',
    '' );
FILE_SCHEMA (( 'CONFIG_CONTROL_DESIGN' ));
ENDSEC;

DATA;
#1 = ORIENTED_EDGE ( 'NONE', *, *, #113, .F. ) ;
#2 = LINE ( 'NONE', #61, #17 ) ;
#3 = AXIS2_PLACEMENT_3D ( 'NONE', #44, #151, #84 ) ;
#4 = PERSON ( 'UNSPECIFIED', 'UNSPECIFIED', 'UNSPECIFIED', ('UNSPECIFIED'), ('UNSPECIFIED'), ('UNSPECIFIED') ) ;
#5 = SECURITY_CLASSIFICATION ( '', '', #26 ) ;
#6 = DIRECTION ( 'NONE',  ( 0.000000000000000000, 0.000000000000000000, 1.000000000000000000 ) ) ;
#7 =( LENGTH_UNIT ( ) NAMED_UNIT ( * ) SI_UNIT ( .MILLI., .METRE. ) );
#8 = COORDINATED_UNIVERSAL_TIME_OFFSET ( 8, 0, .AHEAD. ) ;
#9 = DATE_TIME_ROLE ( 'classification_date' ) ;
#10 = PERSON_AND_ORGANIZATION_ROLE ( 'classification_officer' ) ;
#11 = PRODUCT_DEFINITION_FORMATION_WITH_SPECIFIED_SOURCE ( 'ANY', '', #40, .NOT_KNOWN. ) ;
#12 = APPROVAL ( #134, 'UNSPECIFIED' ) ;
#13 = CARTESIAN_POINT ( 'NONE',  ( 1.999999999999999112, 0.000000000000000000, 6.349999999999999645 ) ) ;
#14 = CARTESIAN_POINT ( 'NONE',  ( -4.102566777143633281E-16, 0.000000000000000000, 6.349999999999999645 ) ) ;
#15 = CARTESIAN_POINT ( 'NONE',  ( 1.999999999999999556, 6.349999999999999645, 0.000000000000000000 ) ) ;
#16 = FACE_OUTER_BOUND ( 'NONE', #112, .T. ) ;
#17 = VECTOR ( 'NONE', #100, 1000.000000000000000 ) ;
#18 = ORIENTED_EDGE ( 'NONE', *, *, #113, .T. ) ;
#19 = MECHANICAL_CONTEXT ( 'NONE', #48, 'mechanical' ) ;
#20 = LOCAL_TIME ( 17, 25, 18.00000000000000000, #120 ) ;
#21 = CARTESIAN_POINT ( 'NONE',  ( 1.999999999999999112, 0.000000000000000000, 0.000000000000000000 ) ) ;
#22 = CARTESIAN_POINT ( 'NONE',  ( 0.000000000000000000, 0.000000000000000000, 0.000000000000000000 ) ) ;
#23 = APPROVAL_ROLE ( '' ) ;
#24 = AXIS2_PLACEMENT_3D ( 'NONE', #22, #6, #50 ) ;
#25 = APPROVAL ( #144, 'UNSPECIFIED' ) ;
#26 = SECURITY_CLASSIFICATION_LEVEL ( 'unclassified' ) ;
#27 = APPROVAL_STATUS ( 'not_yet_approved' ) ;
#28 = ORGANIZATION ( 'UNSPECIFIED', 'UNSPECIFIED', '' ) ;
#29 = VERTEX_POINT ( 'NONE', #74 ) ;
#30 = ORIENTED_EDGE ( 'NONE', *, *, #81, .T. ) ;
#31 = VERTEX_POINT ( 'NONE', #13 ) ;
#32 = LOCAL_TIME ( 17, 25, 18.00000000000000000, #67 ) ;
#33 = LOCAL_TIME ( 17, 25, 18.00000000000000000, #8 ) ;
#34 = DIRECTION ( 'NONE',  ( 0.000000000000000000, 0.000000000000000000, 1.000000000000000000 ) ) ;
#35 = LINE ( 'NONE', #105, #165 ) ;
#36 = CC_DESIGN_SECURITY_CLASSIFICATION ( #5, ( #11 ) ) ;
#37 =( NAMED_UNIT ( * ) PLANE_ANGLE_UNIT ( ) SI_UNIT ( $, .RADIAN. ) );
#38 = CC_DESIGN_PERSON_AND_ORGANIZATION_ASSIGNMENT ( #69, #42, ( #11 ) ) ;
#39 = DATE_AND_TIME ( #161, #20 ) ;
#40 = PRODUCT ( 'MHWP-12.7-632.8', 'MHWP-12.7-632.8', '', ( #19 ) ) ;
#41 = EDGE_CURVE ( 'NONE', #31, #114, #73, .T. ) ;
#42 = PERSON_AND_ORGANIZATION_ROLE ( 'creator' ) ;
#43 = DATE_AND_TIME ( #94, #32 ) ;
#44 = CARTESIAN_POINT ( 'NONE',  ( -4.102566777143633281E-16, 0.000000000000000000, 0.000000000000000000 ) ) ;
#45 = PRODUCT_DEFINITION ( 'UNKNOWN', '', #11, #127 ) ;
#46 = EDGE_LOOP ( 'NONE', ( #103, #88 ) ) ;
#47 = ORIENTED_EDGE ( 'NONE', *, *, #135, .F. ) ;
#48 = APPLICATION_CONTEXT ( 'configuration controlled 3d designs of mechanical parts and assemblies' ) ;
#49 = CC_DESIGN_DATE_AND_TIME_ASSIGNMENT ( #122, #9, ( #5 ) ) ;
#50 = DIRECTION ( 'NONE',  ( 1.000000000000000000, 0.000000000000000000, 0.000000000000000000 ) ) ;
#51 = APPROVAL_PERSON_ORGANIZATION ( #80, #82, #174 ) ;
#52 = APPLICATION_PROTOCOL_DEFINITION ( 'international standard', 'config_control_design', 1994, #138 ) ;
#53 = DIRECTION ( 'NONE',  ( -1.000000000000000000, -0.000000000000000000, -0.000000000000000000 ) ) ;
#54 = CALENDAR_DATE ( 2020, 22, 12 ) ;
#55 = PRODUCT_DEFINITION_SHAPE ( 'NONE', 'NONE',  #45 ) ;
#56 = DATE_AND_TIME ( #107, #150 ) ;
#57 = ADVANCED_FACE ( 'NONE', ( #109 ), #71, .F. ) ;
#58 = APPROVAL_ROLE ( '' ) ;
#59 = LOCAL_TIME ( 17, 25, 18.00000000000000000, #175 ) ;
#60 = CARTESIAN_POINT ( 'NONE',  ( 1.999999999999999112, 0.000000000000000000, 0.000000000000000000 ) ) ;
#61 = CARTESIAN_POINT ( 'NONE',  ( 0.000000000000000000, 0.000000000000000000, 6.349999999999999645 ) ) ;
#62 = DIRECTION ( 'NONE',  ( -1.000000000000000000, -0.000000000000000000, -0.000000000000000000 ) ) ;
#63 = ADVANCED_BREP_SHAPE_REPRESENTATION ( 'MHWP-12.7-632.8', ( #65, #24 ), #99 ) ;
#64 = CALENDAR_DATE ( 2020, 22, 12 ) ;
#65 = MANIFOLD_SOLID_BREP ( 'Ðý×', #145 ) ;
#66 = PERSON_AND_ORGANIZATION ( #4, #28 ) ;
#67 = COORDINATED_UNIVERSAL_TIME_OFFSET ( 8, 0, .AHEAD. ) ;
#68 = PERSON_AND_ORGANIZATION ( #4, #28 ) ;
#69 = PERSON_AND_ORGANIZATION ( #4, #28 ) ;
#70 = DIRECTION ( 'NONE',  ( 0.000000000000000000, 0.000000000000000000, -1.000000000000000000 ) ) ;
#71 = PLANE ( 'NONE',  #101 ) ;
#72 = ADVANCED_FACE ( 'NONE', ( #16 ), #166, .F. ) ;
#73 = CIRCLE ( 'NONE', #163, 6.349999999999999645 ) ;
#74 = CARTESIAN_POINT ( 'NONE',  ( -4.102566777143633281E-16, 7.776507174585692163E-16, -6.349999999999999645 ) ) ;
#75 = ORIENTED_EDGE ( 'NONE', *, *, #41, .T. ) ;
#76 = UNCERTAINTY_MEASURE_WITH_UNIT (LENGTH_MEASURE( 1.000000000000000082E-05 ), #7, 'distance_accuracy_value', 'NONE');
#77 = CC_DESIGN_PERSON_AND_ORGANIZATION_ASSIGNMENT ( #148, #10, ( #5 ) ) ;
#78 = APPLICATION_PROTOCOL_DEFINITION ( 'international standard', 'config_control_design', 1994, #48 ) ;
#79 = CARTESIAN_POINT ( 'NONE',  ( 0.000000000000000000, 0.000000000000000000, 0.000000000000000000 ) ) ;
#80 = PERSON_AND_ORGANIZATION ( #4, #28 ) ;
#81 = EDGE_CURVE ( 'NONE', #31, #124, #2, .T. ) ;
#82 = APPROVAL ( #27, 'UNSPECIFIED' ) ;
#83 = CC_DESIGN_PERSON_AND_ORGANIZATION_ASSIGNMENT ( #118, #132, ( #45 ) ) ;
#84 = DIRECTION ( 'NONE',  ( 0.000000000000000000, 0.000000000000000000, 1.000000000000000000 ) ) ;
#85 = ORIENTED_EDGE ( 'NONE', *, *, #81, .F. ) ;
#86 = DIRECTION ( 'NONE',  ( -1.000000000000000000, -0.000000000000000000, -0.000000000000000000 ) ) ;
#87 = CIRCLE ( 'NONE', #117, 6.349999999999999645 ) ;
#88 = ORIENTED_EDGE ( 'NONE', *, *, #133, .F. ) ;
#89 = ORIENTED_EDGE ( 'NONE', *, *, #135, .T. ) ;
#90 = CC_DESIGN_PERSON_AND_ORGANIZATION_ASSIGNMENT ( #68, #97, ( #11 ) ) ;
#91 = DIRECTION ( 'NONE',  ( 0.000000000000000000, 0.000000000000000000, 1.000000000000000000 ) ) ;
#92 = FACE_OUTER_BOUND ( 'NONE', #110, .T. ) ;
#93 = PERSON_AND_ORGANIZATION ( #4, #28 ) ;
#94 = CALENDAR_DATE ( 2020, 22, 12 ) ;
#95 = AXIS2_PLACEMENT_3D ( 'NONE', #140, #125, #70 ) ;
#96 = COORDINATED_UNIVERSAL_TIME_OFFSET ( 8, 0, .AHEAD. ) ;
#97 = PERSON_AND_ORGANIZATION_ROLE ( 'design_supplier' ) ;
#98 = CIRCLE ( 'NONE', #154, 6.349999999999999645 ) ;
#99 =( GEOMETRIC_REPRESENTATION_CONTEXT ( 3 ) GLOBAL_UNCERTAINTY_ASSIGNED_CONTEXT ( ( #76 ) ) GLOBAL_UNIT_ASSIGNED_CONTEXT ( ( #7, #37, #157 ) ) REPRESENTATION_CONTEXT ( 'NONE', 'WORKASPACE' ) );
#100 = DIRECTION ( 'NONE',  ( -1.000000000000000000, -0.000000000000000000, -0.000000000000000000 ) ) ;
#101 = AXIS2_PLACEMENT_3D ( 'NONE', #15, #164, #153 ) ;
#102 = EDGE_LOOP ( 'NONE', ( #141, #126, #30, #47 ) ) ;
#103 = ORIENTED_EDGE ( 'NONE', *, *, #41, .F. ) ;
#104 = APPROVAL_DATE_TIME ( #142, #25 ) ;
#105 = CARTESIAN_POINT ( 'NONE',  ( 0.000000000000000000, 7.776507174585692163E-16, -6.349999999999999645 ) ) ;
#106 = FACE_OUTER_BOUND ( 'NONE', #102, .T. ) ;
#107 = CALENDAR_DATE ( 2020, 22, 12 ) ;
#108 = APPROVAL_DATE_TIME ( #43, #82 ) ;
#109 = FACE_OUTER_BOUND ( 'NONE', #46, .T. ) ;
#110 = EDGE_LOOP ( 'NONE', ( #75, #167, #1, #85 ) ) ;
#111 = APPROVAL_PERSON_ORGANIZATION ( #66, #12, #58 ) ;
#112 = EDGE_LOOP ( 'NONE', ( #18, #89 ) ) ;
#113 = EDGE_CURVE ( 'NONE', #124, #29, #156, .T. ) ;
#114 = VERTEX_POINT ( 'NONE', #136 ) ;
#115 = PERSON_AND_ORGANIZATION ( #4, #28 ) ;
#116 = CYLINDRICAL_SURFACE ( 'NONE', #162, 6.349999999999999645 ) ;
#117 = AXIS2_PLACEMENT_3D ( 'NONE', #170, #62, #91 ) ;
#118 = PERSON_AND_ORGANIZATION ( #4, #28 ) ;
#119 = SHAPE_DEFINITION_REPRESENTATION ( #55, #63 ) ;
#120 = COORDINATED_UNIVERSAL_TIME_OFFSET ( 8, 0, .AHEAD. ) ;
#121 = APPROVAL_PERSON_ORGANIZATION ( #93, #25, #23 ) ;
#122 = DATE_AND_TIME ( #54, #59 ) ;
#123 = CC_DESIGN_APPROVAL ( #82, ( #11 ) ) ;
#124 = VERTEX_POINT ( 'NONE', #14 ) ;
#125 = DIRECTION ( 'NONE',  ( 1.000000000000000000, 0.000000000000000000, 0.000000000000000000 ) ) ;
#126 = ORIENTED_EDGE ( 'NONE', *, *, #133, .T. ) ;
#127 = DESIGN_CONTEXT ( 'detailed design', #138, 'design' ) ;
#128 = DIRECTION ( 'NONE',  ( -1.000000000000000000, -0.000000000000000000, -0.000000000000000000 ) ) ;
#129 = EDGE_CURVE ( 'NONE', #114, #29, #35, .T. ) ;
#130 = ADVANCED_FACE ( 'NONE', ( #92 ), #158, .T. ) ;
#131 = DATE_TIME_ROLE ( 'creation_date' ) ;
#132 = PERSON_AND_ORGANIZATION_ROLE ( 'creator' ) ;
#133 = EDGE_CURVE ( 'NONE', #114, #31, #98, .T. ) ;
#134 = APPROVAL_STATUS ( 'not_yet_approved' ) ;
#135 = EDGE_CURVE ( 'NONE', #29, #124, #87, .T. ) ;
#136 = CARTESIAN_POINT ( 'NONE',  ( 1.999999999999999112, 7.776507174585692163E-16, -6.349999999999999645 ) ) ;
#137 = DIRECTION ( 'NONE',  ( 0.000000000000000000, 0.000000000000000000, 1.000000000000000000 ) ) ;
#138 = APPLICATION_CONTEXT ( 'configuration controlled 3d designs of mechanical parts and assemblies' ) ;
#139 = PRODUCT_RELATED_PRODUCT_CATEGORY ( 'detail', '', ( #40 ) ) ;
#140 = CARTESIAN_POINT ( 'NONE',  ( -2.051283388571816641E-16, 6.349999999999999645, 0.000000000000000000 ) ) ;
#141 = ORIENTED_EDGE ( 'NONE', *, *, #129, .F. ) ;
#142 = DATE_AND_TIME ( #64, #33 ) ;
#143 = DIRECTION ( 'NONE',  ( -1.000000000000000000, -0.000000000000000000, -0.000000000000000000 ) ) ;
#144 = APPROVAL_STATUS ( 'not_yet_approved' ) ;
#145 = CLOSED_SHELL ( 'NONE', ( #130, #147, #57, #72 ) ) ;
#146 = CC_DESIGN_PERSON_AND_ORGANIZATION_ASSIGNMENT ( #115, #172, ( #40 ) ) ;
#147 = ADVANCED_FACE ( 'NONE', ( #106 ), #116, .T. ) ;
#148 = PERSON_AND_ORGANIZATION ( #4, #28 ) ;
#149 = CC_DESIGN_DATE_AND_TIME_ASSIGNMENT ( #39, #131, ( #45 ) ) ;
#150 = LOCAL_TIME ( 17, 25, 18.00000000000000000, #96 ) ;
#151 = DIRECTION ( 'NONE',  ( -1.000000000000000000, -0.000000000000000000, -0.000000000000000000 ) ) ;
#152 = CC_DESIGN_APPROVAL ( #25, ( #45 ) ) ;
#153 = DIRECTION ( 'NONE',  ( -0.000000000000000000, 0.000000000000000000, 1.000000000000000000 ) ) ;
#154 = AXIS2_PLACEMENT_3D ( 'NONE', #21, #128, #168 ) ;
#155 = CC_DESIGN_APPROVAL ( #12, ( #5 ) ) ;
#156 = CIRCLE ( 'NONE', #3, 6.349999999999999645 ) ;
#157 =( NAMED_UNIT ( * ) SI_UNIT ( $, .STERADIAN. ) SOLID_ANGLE_UNIT ( ) );
#158 = CYLINDRICAL_SURFACE ( 'NONE', #171, 6.349999999999999645 ) ;
#159 = DIRECTION ( 'NONE',  ( 0.000000000000000000, 0.000000000000000000, 1.000000000000000000 ) ) ;
#160 = APPROVAL_DATE_TIME ( #56, #12 ) ;
#161 = CALENDAR_DATE ( 2020, 22, 12 ) ;
#162 = AXIS2_PLACEMENT_3D ( 'NONE', #79, #143, #159 ) ;
#163 = AXIS2_PLACEMENT_3D ( 'NONE', #60, #86, #137 ) ;
#164 = DIRECTION ( 'NONE',  ( -1.000000000000000000, 0.000000000000000000, -0.000000000000000000 ) ) ;
#165 = VECTOR ( 'NONE', #173, 1000.000000000000000 ) ;
#166 = PLANE ( 'NONE',  #95 ) ;
#167 = ORIENTED_EDGE ( 'NONE', *, *, #129, .T. ) ;
#168 = DIRECTION ( 'NONE',  ( 0.000000000000000000, 0.000000000000000000, 1.000000000000000000 ) ) ;
#169 = CARTESIAN_POINT ( 'NONE',  ( 0.000000000000000000, 0.000000000000000000, 0.000000000000000000 ) ) ;
#170 = CARTESIAN_POINT ( 'NONE',  ( -4.102566777143633281E-16, 0.000000000000000000, 0.000000000000000000 ) ) ;
#171 = AXIS2_PLACEMENT_3D ( 'NONE', #169, #53, #34 ) ;
#172 = PERSON_AND_ORGANIZATION_ROLE ( 'design_owner' ) ;
#173 = DIRECTION ( 'NONE',  ( -1.000000000000000000, -0.000000000000000000, -0.000000000000000000 ) ) ;
#174 = APPROVAL_ROLE ( '' ) ;
#175 = COORDINATED_UNIVERSAL_TIME_OFFSET ( 8, 0, .AHEAD. ) ;
ENDSEC;
END-ISO-10303-21;
